ISO-10303-21;
HEADER;
FILE_DESCRIPTION (( 'STEP AP203' ),
    '1' );
FILE_NAME ('100NPTETS.STEP',
    '2019-09-03T07:53:38',
    ( '' ),
    ( '' ),
    'SwSTEP 2.0',
    'SolidWorks 2017',
    '' );
FILE_SCHEMA (( 'CONFIG_CONTROL_DESIGN' ));
ENDSEC;

DATA;
#1 = ORIENTED_EDGE ( 'NONE', *, *, #78, .T. ) ;
#2 = APPROVAL_ROLE ( '' ) ;
#3 = VERTEX_POINT ( 'NONE', #169 ) ;
#4 = PERSON_AND_ORGANIZATION ( #122, #216 ) ;
#5 = EDGE_CURVE ( 'NONE', #72, #91, #45, .T. ) ;
#6 = SECURITY_CLASSIFICATION ( '', '', #177 ) ;
#7 = ORIENTED_EDGE ( 'NONE', *, *, #199, .F. ) ;
#8 = PLANE ( 'NONE',  #81 ) ;
#9 = ORIENTED_EDGE ( 'NONE', *, *, #199, .T. ) ;
#10 = DIRECTION ( 'NONE',  ( -0.0000000000000000000, -1.000000000000000000, -0.0000000000000000000 ) ) ;
#11 = CARTESIAN_POINT ( 'NONE',  ( 2.716869220969569700E-015, 0.0000000000000000000, -22.14999999999999900 ) ) ;
#12 = PRODUCT ( '100NPTETS', '100NPTETS', '', ( #77 ) ) ;
#13 = APPLICATION_CONTEXT ( 'configuration controlled 3d designs of mechanical parts and assemblies' ) ;
#14 = CARTESIAN_POINT ( 'NONE',  ( 0.0000000000000000000, 2.000000000000000000, 22.21984153898348100 ) ) ;
#15 = CIRCLE ( 'NONE', #131, 17.00000000000000000 ) ;
#16 = CIRCLE ( 'NONE', #166, 22.21984153898348100 ) ;
#17 = EDGE_LOOP ( 'NONE', ( #28, #148 ) ) ;
#18 = DIRECTION ( 'NONE',  ( -0.0000000000000000000, -1.000000000000000000, -0.0000000000000000000 ) ) ;
#19 = CC_DESIGN_DATE_AND_TIME_ASSIGNMENT ( #140, #158, ( #6 ) ) ;
#20 = PERSON_AND_ORGANIZATION_ROLE ( 'creator' ) ;
#21 = ADVANCED_FACE ( 'NONE', ( #43, #83 ), #8, .F. ) ;
#22 = PERSON_AND_ORGANIZATION_ROLE ( 'design_owner' ) ;
#23 = SHAPE_DEFINITION_REPRESENTATION ( #75, #180 ) ;
#24 = CC_DESIGN_DATE_AND_TIME_ASSIGNMENT ( #57, #237, ( #172 ) ) ;
#25 = FACE_BOUND ( 'NONE', #26, .T. ) ;
#26 = EDGE_LOOP ( 'NONE', ( #147, #128 ) ) ;
#27 = DIRECTION ( 'NONE',  ( 0.0000000000000000000, 0.0000000000000000000, -1.000000000000000000 ) ) ;
#28 = ORIENTED_EDGE ( 'NONE', *, *, #141, .T. ) ;
#29 = DIRECTION ( 'NONE',  ( -0.0000000000000000000, -1.000000000000000000, -0.0000000000000000000 ) ) ;
#30 = EDGE_CURVE ( 'NONE', #91, #72, #137, .T. ) ;
#31 = DIRECTION ( 'NONE',  ( 0.0000000000000000000, 0.0000000000000000000, -1.000000000000000000 ) ) ;
#32 = ORIENTED_EDGE ( 'NONE', *, *, #176, .F. ) ;
#33 = DIRECTION ( 'NONE',  ( -0.0000000000000000000, -1.000000000000000000, -0.0000000000000000000 ) ) ;
#34 = CYLINDRICAL_SURFACE ( 'NONE', #123, 17.00000000000000000 ) ;
#35 = DIRECTION ( 'NONE',  ( 0.0000000000000000000, 1.000000000000000000, 0.0000000000000000000 ) ) ;
#36 = CARTESIAN_POINT ( 'NONE',  ( 2.081899558550500300E-015, 0.0000000000000000000, 17.00000000000000000 ) ) ;
#37 = DIRECTION ( 'NONE',  ( 0.0000000000000000000, 1.000000000000000000, 0.0000000000000000000 ) ) ;
#38 = COORDINATED_UNIVERSAL_TIME_OFFSET ( 0, 0, .AHEAD. ) ;
#39 = APPROVAL_STATUS ( 'not_yet_approved' ) ;
#40 = APPLICATION_CONTEXT ( 'configuration controlled 3d designs of mechanical parts and assemblies' ) ;
#41 = CC_DESIGN_APPROVAL ( #186, ( #121 ) ) ;
#42 = COORDINATED_UNIVERSAL_TIME_OFFSET ( 0, 0, .AHEAD. ) ;
#43 = FACE_OUTER_BOUND ( 'NONE', #134, .T. ) ;
#44 = ORIENTED_EDGE ( 'NONE', *, *, #203, .T. ) ;
#45 = CIRCLE ( 'NONE', #155, 22.14999999999999900 ) ;
#46 = DATE_AND_TIME ( #152, #126 ) ;
#47 = CONICAL_SURFACE ( 'NONE', #119, 22.21984153898348100, 0.03490658503987907600 ) ;
#48 = COORDINATED_UNIVERSAL_TIME_OFFSET ( 0, 0, .AHEAD. ) ;
#49 = PERSON_AND_ORGANIZATION ( #122, #216 ) ;
#50 = DIRECTION ( 'NONE',  ( 0.0000000000000000000, 0.0000000000000000000, -1.000000000000000000 ) ) ;
#51 = CARTESIAN_POINT ( 'NONE',  ( 2.081899558550500300E-015, 0.0000000000000000000, 17.00000000000000000 ) ) ;
#52 = APPROVAL_DATE_TIME ( #213, #184 ) ;
#53 = EDGE_CURVE ( 'NONE', #240, #187, #82, .T. ) ;
#54 = DIRECTION ( 'NONE',  ( 0.0000000000000000000, 0.0000000000000000000, -1.000000000000000000 ) ) ;
#55 = CARTESIAN_POINT ( 'NONE',  ( 0.0000000000000000000, 2.000000000000000000, -17.00000000000000000 ) ) ;
#56 = CC_DESIGN_PERSON_AND_ORGANIZATION_ASSIGNMENT ( #244, #97, ( #6 ) ) ;
#57 = DATE_AND_TIME ( #105, #85 ) ;
#58 = VECTOR ( 'NONE', #246, 1000.000000000000000 ) ;
#59 = ORIENTED_EDGE ( 'NONE', *, *, #53, .T. ) ;
#60 = DIRECTION ( 'NONE',  ( -0.0000000000000000000, -1.000000000000000000, -0.0000000000000000000 ) ) ;
#61 = CARTESIAN_POINT ( 'NONE',  ( -22.21984153898348100, 2.000000000000000000, 0.0000000000000000000 ) ) ;
#62 = ORIENTED_EDGE ( 'NONE', *, *, #65, .T. ) ;
#63 = ORIENTED_EDGE ( 'NONE', *, *, #30, .F. ) ;
#64 = DIRECTION ( 'NONE',  ( 0.0000000000000000000, 1.000000000000000000, 0.0000000000000000000 ) ) ;
#65 = EDGE_CURVE ( 'NONE', #3, #222, #112, .T. ) ;
#66 = CARTESIAN_POINT ( 'NONE',  ( 0.0000000000000000000, 0.0000000000000000000, 0.0000000000000000000 ) ) ;
#67 = PERSON_AND_ORGANIZATION ( #122, #216 ) ;
#68 = CARTESIAN_POINT ( 'NONE',  ( 0.0000000000000000000, 2.000000000000000000, 22.21984153898348100 ) ) ;
#69 = APPLICATION_PROTOCOL_DEFINITION ( 'international standard', 'config_control_design', 1994, #13 ) ;
#70 = DIRECTION ( 'NONE',  ( 0.0000000000000000000, -0.0000000000000000000, 1.000000000000000000 ) ) ;
#71 = LINE ( 'NONE', #14, #164 ) ;
#72 = VERTEX_POINT ( 'NONE', #224 ) ;
#73 =( LENGTH_UNIT ( ) NAMED_UNIT ( * ) SI_UNIT ( .MILLI., .METRE. ) );
#74 = ADVANCED_FACE ( 'NONE', ( #218 ), #47, .T. ) ;
#75 = PRODUCT_DEFINITION_SHAPE ( 'NONE', 'NONE',  #172 ) ;
#76 = APPROVAL_ROLE ( '' ) ;
#77 = MECHANICAL_CONTEXT ( 'NONE', #13, 'mechanical' ) ;
#78 = EDGE_CURVE ( 'NONE', #222, #3, #15, .T. ) ;
#79 = VECTOR ( 'NONE', #156, 1000.000000000000100 ) ;
#80 = AXIS2_PLACEMENT_3D ( 'NONE', #87, #209, #135 ) ;
#81 = AXIS2_PLACEMENT_3D ( 'NONE', #61, #185, #142 ) ;
#82 = CIRCLE ( 'NONE', #100, 22.21984153898348100 ) ;
#83 = FACE_BOUND ( 'NONE', #17, .T. ) ;
#84 = APPROVAL ( #95, 'UNSPECIFIED' ) ;
#85 = LOCAL_TIME ( 8, 53, 38.00000000000000000, #93 ) ;
#86 = CC_DESIGN_APPROVAL ( #184, ( #172 ) ) ;
#87 = CARTESIAN_POINT ( 'NONE',  ( 0.0000000000000000000, 0.0000000000000000000, 0.0000000000000000000 ) ) ;
#88 = CARTESIAN_POINT ( 'NONE',  ( 0.0000000000000000000, 2.000000000000000000, 0.0000000000000000000 ) ) ;
#89 = LINE ( 'NONE', #36, #221 ) ;
#90 = DIRECTION ( 'NONE',  ( 0.0000000000000000000, 0.0000000000000000000, -1.000000000000000000 ) ) ;
#91 = VERTEX_POINT ( 'NONE', #11 ) ;
#92 = DIRECTION ( 'NONE',  ( 0.0000000000000000000, 0.9993908270190958700, 0.03489949670249345400 ) ) ;
#93 = COORDINATED_UNIVERSAL_TIME_OFFSET ( 0, 0, .AHEAD. ) ;
#94 = AXIS2_PLACEMENT_3D ( 'NONE', #102, #29, #31 ) ;
#95 = APPROVAL_STATUS ( 'not_yet_approved' ) ;
#96 = VERTEX_POINT ( 'NONE', #104 ) ;
#97 = PERSON_AND_ORGANIZATION_ROLE ( 'classification_officer' ) ;
#98 = ADVANCED_FACE ( 'NONE', ( #25, #245 ), #223, .F. ) ;
#99 = ORIENTED_EDGE ( 'NONE', *, *, #141, .F. ) ;
#100 = AXIS2_PLACEMENT_3D ( 'NONE', #103, #60, #165 ) ;
#101 = CALENDAR_DATE ( 2019, 3, 9 ) ;
#102 = CARTESIAN_POINT ( 'NONE',  ( 0.0000000000000000000, 0.0000000000000000000, 0.0000000000000000000 ) ) ;
#103 = CARTESIAN_POINT ( 'NONE',  ( 0.0000000000000000000, 2.000000000000000000, 0.0000000000000000000 ) ) ;
#104 = CARTESIAN_POINT ( 'NONE',  ( 2.081899558550500300E-015, 2.000000000000000000, 17.00000000000000000 ) ) ;
#105 = CALENDAR_DATE ( 2019, 3, 9 ) ;
#106 = DIRECTION ( 'NONE',  ( -0.0000000000000000000, -1.000000000000000000, -0.0000000000000000000 ) ) ;
#107 = DIRECTION ( 'NONE',  ( 0.0000000000000000000, 0.0000000000000000000, 1.000000000000000000 ) ) ;
#108 = DIRECTION ( 'NONE',  ( 0.0000000000000000000, 0.0000000000000000000, -1.000000000000000000 ) ) ;
#109 = DIRECTION ( 'NONE',  ( -0.0000000000000000000, -1.000000000000000000, -0.0000000000000000000 ) ) ;
#110 = CONICAL_SURFACE ( 'NONE', #162, 22.21984153898348100, 0.03490658503987907600 ) ;
#111 = EDGE_LOOP ( 'NONE', ( #63, #44, #59, #198 ) ) ;
#112 = CIRCLE ( 'NONE', #138, 17.00000000000000000 ) ;
#113 = CC_DESIGN_PERSON_AND_ORGANIZATION_ASSIGNMENT ( #67, #20, ( #172 ) ) ;
#114 = APPROVAL_ROLE ( '' ) ;
#115 = CIRCLE ( 'NONE', #205, 17.00000000000000000 ) ;
#116 = FACE_OUTER_BOUND ( 'NONE', #111, .T. ) ;
#117 = ORIENTED_EDGE ( 'NONE', *, *, #203, .F. ) ;
#118 = CLOSED_SHELL ( 'NONE', ( #235, #236, #74, #98, #191, #21 ) ) ;
#119 = AXIS2_PLACEMENT_3D ( 'NONE', #150, #64, #242 ) ;
#120 = ORIENTED_EDGE ( 'NONE', *, *, #30, .T. ) ;
#121 = PRODUCT_DEFINITION_FORMATION_WITH_SPECIFIED_SOURCE ( 'ANY', '', #12, .NOT_KNOWN. ) ;
#122 = PERSON ( 'UNSPECIFIED', 'UNSPECIFIED', 'UNSPECIFIED', ('UNSPECIFIED'), ('UNSPECIFIED'), ('UNSPECIFIED') ) ;
#123 = AXIS2_PLACEMENT_3D ( 'NONE', #153, #33, #90 ) ;
#124 = DATE_AND_TIME ( #133, #200 ) ;
#125 = CARTESIAN_POINT ( 'NONE',  ( 0.0000000000000000000, 2.000000000000000000, 0.0000000000000000000 ) ) ;
#126 = LOCAL_TIME ( 8, 53, 38.00000000000000000, #38 ) ;
#127 = LINE ( 'NONE', #208, #79 ) ;
#128 = ORIENTED_EDGE ( 'NONE', *, *, #78, .F. ) ;
#129 = CARTESIAN_POINT ( 'NONE',  ( 2.721145781827751700E-015, 2.000000000000000000, -22.21984153898348100 ) ) ;
#130 = CARTESIAN_POINT ( 'NONE',  ( -22.14999999999999900, 0.0000000000000000000, 0.0000000000000000000 ) ) ;
#131 = AXIS2_PLACEMENT_3D ( 'NONE', #204, #171, #210 ) ;
#132 = APPLICATION_PROTOCOL_DEFINITION ( 'international standard', 'config_control_design', 1994, #40 ) ;
#133 = CALENDAR_DATE ( 2019, 3, 9 ) ;
#134 = EDGE_LOOP ( 'NONE', ( #202, #193 ) ) ;
#135 = DIRECTION ( 'NONE',  ( 1.000000000000000000, 0.0000000000000000000, 0.0000000000000000000 ) ) ;
#136 = APPROVAL_PERSON_ORGANIZATION ( #189, #84, #76 ) ;
#137 = CIRCLE ( 'NONE', #94, 22.14999999999999900 ) ;
#138 = AXIS2_PLACEMENT_3D ( 'NONE', #226, #144, #50 ) ;
#139 = CC_DESIGN_PERSON_AND_ORGANIZATION_ASSIGNMENT ( #4, #212, ( #121 ) ) ;
#140 = DATE_AND_TIME ( #101, #197 ) ;
#141 = EDGE_CURVE ( 'NONE', #154, #96, #115, .T. ) ;
#142 = DIRECTION ( 'NONE',  ( 0.0000000000000000000, 0.0000000000000000000, -1.000000000000000000 ) ) ;
#143 = CC_DESIGN_PERSON_AND_ORGANIZATION_ASSIGNMENT ( #238, #175, ( #121 ) ) ;
#144 = DIRECTION ( 'NONE',  ( -0.0000000000000000000, -1.000000000000000000, -0.0000000000000000000 ) ) ;
#145 = AXIS2_PLACEMENT_3D ( 'NONE', #130, #35, #70 ) ;
#146 = CC_DESIGN_SECURITY_CLASSIFICATION ( #6, ( #121 ) ) ;
#147 = ORIENTED_EDGE ( 'NONE', *, *, #65, .F. ) ;
#148 = ORIENTED_EDGE ( 'NONE', *, *, #151, .T. ) ;
#149 = DESIGN_CONTEXT ( 'detailed design', #40, 'design' ) ;
#150 = CARTESIAN_POINT ( 'NONE',  ( 0.0000000000000000000, 2.000000000000000000, 0.0000000000000000000 ) ) ;
#151 = EDGE_CURVE ( 'NONE', #96, #154, #161, .T. ) ;
#152 = CALENDAR_DATE ( 2019, 3, 9 ) ;
#153 = CARTESIAN_POINT ( 'NONE',  ( 0.0000000000000000000, 0.0000000000000000000, 0.0000000000000000000 ) ) ;
#154 = VERTEX_POINT ( 'NONE', #55 ) ;
#155 = AXIS2_PLACEMENT_3D ( 'NONE', #66, #10, #27 ) ;
#156 = DIRECTION ( 'NONE',  ( 4.273955692856222700E-018, 0.9993908270190958700, -0.03489949670249345400 ) ) ;
#157 = EDGE_LOOP ( 'NONE', ( #7, #99, #220, #62 ) ) ;
#158 = DATE_TIME_ROLE ( 'classification_date' ) ;
#159 = APPROVAL_PERSON_ORGANIZATION ( #248, #186, #2 ) ;
#160 = CC_DESIGN_PERSON_AND_ORGANIZATION_ASSIGNMENT ( #49, #22, ( #12 ) ) ;
#161 = CIRCLE ( 'NONE', #211, 17.00000000000000000 ) ;
#162 = AXIS2_PLACEMENT_3D ( 'NONE', #88, #37, #107 ) ;
#163 = MANIFOLD_SOLID_BREP ( 'Revolve1', #118 ) ;
#164 = VECTOR ( 'NONE', #92, 1000.000000000000100 ) ;
#165 = DIRECTION ( 'NONE',  ( 0.0000000000000000000, 0.0000000000000000000, -1.000000000000000000 ) ) ;
#166 = AXIS2_PLACEMENT_3D ( 'NONE', #231, #229, #54 ) ;
#167 = CYLINDRICAL_SURFACE ( 'NONE', #174, 17.00000000000000000 ) ;
#168 = PRODUCT_RELATED_PRODUCT_CATEGORY ( 'detail', '', ( #12 ) ) ;
#169 = CARTESIAN_POINT ( 'NONE',  ( 0.0000000000000000000, 0.0000000000000000000, -17.00000000000000000 ) ) ;
#170 = EDGE_LOOP ( 'NONE', ( #179, #120 ) ) ;
#171 = DIRECTION ( 'NONE',  ( -0.0000000000000000000, -1.000000000000000000, -0.0000000000000000000 ) ) ;
#172 = PRODUCT_DEFINITION ( 'UNKNOWN', '', #121, #149 ) ;
#173 = APPROVAL_STATUS ( 'not_yet_approved' ) ;
#174 = AXIS2_PLACEMENT_3D ( 'NONE', #190, #109, #108 ) ;
#175 = PERSON_AND_ORGANIZATION_ROLE ( 'creator' ) ;
#176 = EDGE_CURVE ( 'NONE', #154, #3, #230, .T. ) ;
#177 = SECURITY_CLASSIFICATION_LEVEL ( 'unclassified' ) ;
#178 = FACE_OUTER_BOUND ( 'NONE', #157, .T. ) ;
#179 = ORIENTED_EDGE ( 'NONE', *, *, #5, .T. ) ;
#180 = ADVANCED_BREP_SHAPE_REPRESENTATION ( '100NPTETS', ( #163, #80 ), #194 ) ;
#181 = ORIENTED_EDGE ( 'NONE', *, *, #214, .T. ) ;
#182 = UNCERTAINTY_MEASURE_WITH_UNIT (LENGTH_MEASURE( 1.000000000000000100E-005 ), #73, 'distance_accuracy_value', 'NONE');
#183 = FACE_OUTER_BOUND ( 'NONE', #241, .T. ) ;
#184 = APPROVAL ( #173, 'UNSPECIFIED' ) ;
#185 = DIRECTION ( 'NONE',  ( 0.0000000000000000000, -1.000000000000000000, -0.0000000000000000000 ) ) ;
#186 = APPROVAL ( #39, 'UNSPECIFIED' ) ;
#187 = VERTEX_POINT ( 'NONE', #68 ) ;
#188 = DIRECTION ( 'NONE',  ( 0.0000000000000000000, 0.0000000000000000000, -1.000000000000000000 ) ) ;
#189 = PERSON_AND_ORGANIZATION ( #122, #216 ) ;
#190 = CARTESIAN_POINT ( 'NONE',  ( 0.0000000000000000000, 0.0000000000000000000, 0.0000000000000000000 ) ) ;
#191 = ADVANCED_FACE ( 'NONE', ( #178 ), #34, .F. ) ;
#192 = DIRECTION ( 'NONE',  ( 0.0000000000000000000, 0.0000000000000000000, -1.000000000000000000 ) ) ;
#193 = ORIENTED_EDGE ( 'NONE', *, *, #53, .F. ) ;
#194 =( GEOMETRIC_REPRESENTATION_CONTEXT ( 3 ) GLOBAL_UNCERTAINTY_ASSIGNED_CONTEXT ( ( #182 ) ) GLOBAL_UNIT_ASSIGNED_CONTEXT ( ( #73, #233, #227 ) ) REPRESENTATION_CONTEXT ( 'NONE', 'WORKASPACE' ) );
#195 = DIRECTION ( 'NONE',  ( -0.0000000000000000000, -1.000000000000000000, -0.0000000000000000000 ) ) ;
#196 = EDGE_LOOP ( 'NONE', ( #117, #217, #181, #215 ) ) ;
#197 = LOCAL_TIME ( 8, 53, 38.00000000000000000, #234 ) ;
#198 = ORIENTED_EDGE ( 'NONE', *, *, #214, .F. ) ;
#199 = EDGE_CURVE ( 'NONE', #96, #222, #89, .T. ) ;
#200 = LOCAL_TIME ( 8, 53, 38.00000000000000000, #48 ) ;
#201 = APPROVAL_PERSON_ORGANIZATION ( #249, #184, #114 ) ;
#202 = ORIENTED_EDGE ( 'NONE', *, *, #228, .F. ) ;
#203 = EDGE_CURVE ( 'NONE', #91, #240, #127, .T. ) ;
#204 = CARTESIAN_POINT ( 'NONE',  ( 0.0000000000000000000, 0.0000000000000000000, 0.0000000000000000000 ) ) ;
#205 = AXIS2_PLACEMENT_3D ( 'NONE', #243, #106, #188 ) ;
#206 = CC_DESIGN_APPROVAL ( #84, ( #6 ) ) ;
#207 = CALENDAR_DATE ( 2019, 3, 9 ) ;
#208 = CARTESIAN_POINT ( 'NONE',  ( 2.721145781827751700E-015, 2.000000000000000000, -22.21984153898348100 ) ) ;
#209 = DIRECTION ( 'NONE',  ( 0.0000000000000000000, 0.0000000000000000000, 1.000000000000000000 ) ) ;
#210 = DIRECTION ( 'NONE',  ( 0.0000000000000000000, 0.0000000000000000000, -1.000000000000000000 ) ) ;
#211 = AXIS2_PLACEMENT_3D ( 'NONE', #125, #18, #192 ) ;
#212 = PERSON_AND_ORGANIZATION_ROLE ( 'design_supplier' ) ;
#213 = DATE_AND_TIME ( #207, #219 ) ;
#214 = EDGE_CURVE ( 'NONE', #72, #187, #71, .T. ) ;
#215 = ORIENTED_EDGE ( 'NONE', *, *, #228, .T. ) ;
#216 = ORGANIZATION ( 'UNSPECIFIED', 'UNSPECIFIED', '' ) ;
#217 = ORIENTED_EDGE ( 'NONE', *, *, #5, .F. ) ;
#218 = FACE_OUTER_BOUND ( 'NONE', #196, .T. ) ;
#219 = LOCAL_TIME ( 8, 53, 38.00000000000000000, #42 ) ;
#220 = ORIENTED_EDGE ( 'NONE', *, *, #176, .T. ) ;
#221 = VECTOR ( 'NONE', #195, 1000.000000000000000 ) ;
#222 = VERTEX_POINT ( 'NONE', #51 ) ;
#223 = PLANE ( 'NONE',  #145 ) ;
#224 = CARTESIAN_POINT ( 'NONE',  ( 0.0000000000000000000, 0.0000000000000000000, 22.14999999999999900 ) ) ;
#225 = APPROVAL_DATE_TIME ( #124, #84 ) ;
#226 = CARTESIAN_POINT ( 'NONE',  ( 0.0000000000000000000, 0.0000000000000000000, 0.0000000000000000000 ) ) ;
#227 =( NAMED_UNIT ( * ) SI_UNIT ( $, .STERADIAN. ) SOLID_ANGLE_UNIT ( ) );
#228 = EDGE_CURVE ( 'NONE', #187, #240, #16, .T. ) ;
#229 = DIRECTION ( 'NONE',  ( -0.0000000000000000000, -1.000000000000000000, -0.0000000000000000000 ) ) ;
#230 = LINE ( 'NONE', #247, #58 ) ;
#231 = CARTESIAN_POINT ( 'NONE',  ( 0.0000000000000000000, 2.000000000000000000, 0.0000000000000000000 ) ) ;
#232 = ORIENTED_EDGE ( 'NONE', *, *, #151, .F. ) ;
#233 =( NAMED_UNIT ( * ) PLANE_ANGLE_UNIT ( ) SI_UNIT ( $, .RADIAN. ) );
#234 = COORDINATED_UNIVERSAL_TIME_OFFSET ( 0, 0, .AHEAD. ) ;
#235 = ADVANCED_FACE ( 'NONE', ( #183 ), #167, .F. ) ;
#236 = ADVANCED_FACE ( 'NONE', ( #116 ), #110, .T. ) ;
#237 = DATE_TIME_ROLE ( 'creation_date' ) ;
#238 = PERSON_AND_ORGANIZATION ( #122, #216 ) ;
#239 = APPROVAL_DATE_TIME ( #46, #186 ) ;
#240 = VERTEX_POINT ( 'NONE', #129 ) ;
#241 = EDGE_LOOP ( 'NONE', ( #232, #9, #1, #32 ) ) ;
#242 = DIRECTION ( 'NONE',  ( 0.0000000000000000000, 0.0000000000000000000, 1.000000000000000000 ) ) ;
#243 = CARTESIAN_POINT ( 'NONE',  ( 0.0000000000000000000, 2.000000000000000000, 0.0000000000000000000 ) ) ;
#244 = PERSON_AND_ORGANIZATION ( #122, #216 ) ;
#245 = FACE_OUTER_BOUND ( 'NONE', #170, .T. ) ;
#246 = DIRECTION ( 'NONE',  ( -0.0000000000000000000, -1.000000000000000000, -0.0000000000000000000 ) ) ;
#247 = CARTESIAN_POINT ( 'NONE',  ( 0.0000000000000000000, 0.0000000000000000000, -17.00000000000000000 ) ) ;
#248 = PERSON_AND_ORGANIZATION ( #122, #216 ) ;
#249 = PERSON_AND_ORGANIZATION ( #122, #216 ) ;
ENDSEC;
END-ISO-10303-21;
